ISO-10303-21;
HEADER;
FILE_DESCRIPTION (( 'STEP AP203' ),
    '1' );
FILE_NAME ('QB-CTZHWP-20-795-M.STEP',
    '2020-12-24T01:36:00',
    ( '' ),
    ( '' ),
    'SwSTEP 2.0',
    'SolidWorks 2020',
    '' );
FILE_SCHEMA (( 'CONFIG_CONTROL_DESIGN' ));
ENDSEC;

DATA;
#1 = ORIENTED_EDGE ( 'NONE', *, *, #56, .F. ) ;
#2 = EDGE_CURVE ( 'NONE', #232, #178, #189, .T. ) ;
#3 = AXIS2_PLACEMENT_3D ( 'NONE', #89, #70, #118 ) ;
#4 = CALENDAR_DATE ( 2020, 24, 12 ) ;
#5 = AXIS2_PLACEMENT_3D ( 'NONE', #73, #173, #48 ) ;
#6 = AXIS2_PLACEMENT_3D ( 'NONE', #46, #17, #169 ) ;
#7 = CC_DESIGN_SECURITY_CLASSIFICATION ( #254, ( #32 ) ) ;
#8 =( LENGTH_UNIT ( ) NAMED_UNIT ( * ) SI_UNIT ( .MILLI., .METRE. ) );
#9 = DIRECTION ( 'NONE',  ( 0.000000000000000000, 0.000000000000000000, 1.000000000000000000 ) ) ;
#10 = ORIENTED_EDGE ( 'NONE', *, *, #235, .F. ) ;
#11 = PRODUCT_DEFINITION_SHAPE ( 'NONE', 'NONE',  #156 ) ;
#12 = CARTESIAN_POINT ( 'NONE',  ( 3.000000000000000000, 1.555301434917138433E-15, -12.69999999999999929 ) ) ;
#13 = CARTESIAN_POINT ( 'NONE',  ( -3.000000000000000000, 10.00000000000000000, 0.000000000000000000 ) ) ;
#14 = PERSON ( 'UNSPECIFIED', 'UNSPECIFIED', 'UNSPECIFIED', ('UNSPECIFIED'), ('UNSPECIFIED'), ('UNSPECIFIED') ) ;
#15 = DIRECTION ( 'NONE',  ( -1.000000000000000000, 0.000000000000000000, -0.000000000000000000 ) ) ;
#16 = DIRECTION ( 'NONE',  ( 0.000000000000000000, 0.000000000000000000, -1.000000000000000000 ) ) ;
#17 = DIRECTION ( 'NONE',  ( -1.000000000000000000, -0.000000000000000000, -0.000000000000000000 ) ) ;
#18 = FACE_OUTER_BOUND ( 'NONE', #261, .T. ) ;
#19 = AXIS2_PLACEMENT_3D ( 'NONE', #246, #298, #304 ) ;
#20 = CALENDAR_DATE ( 2020, 24, 12 ) ;
#21 = CYLINDRICAL_SURFACE ( 'NONE', #131, 12.69999999999999929 ) ;
#22 = ORIENTED_EDGE ( 'NONE', *, *, #60, .T. ) ;
#23 = ORIENTED_EDGE ( 'NONE', *, *, #42, .F. ) ;
#24 = APPROVAL_PERSON_ORGANIZATION ( #54, #332, #106 ) ;
#25 = ORIENTED_EDGE ( 'NONE', *, *, #318, .F. ) ;
#26 = APPROVAL ( #90, 'UNSPECIFIED' ) ;
#27 = VERTEX_POINT ( 'NONE', #324 ) ;
#28 = COORDINATED_UNIVERSAL_TIME_OFFSET ( 8, 0, .AHEAD. ) ;
#29 = VERTEX_POINT ( 'NONE', #242 ) ;
#30 = DESIGN_CONTEXT ( 'detailed design', #262, 'design' ) ;
#31 = ADVANCED_FACE ( 'NONE', ( #321, #87 ), #115, .F. ) ;
#32 = PRODUCT_DEFINITION_FORMATION_WITH_SPECIFIED_SOURCE ( 'ANY', '', #292, .NOT_KNOWN. ) ;
#33 = EDGE_CURVE ( 'NONE', #256, #224, #99, .T. ) ;
#34 = LINE ( 'NONE', #222, #228 ) ;
#35 = DIRECTION ( 'NONE',  ( 0.000000000000000000, 0.000000000000000000, 1.000000000000000000 ) ) ;
#36 = AXIS2_PLACEMENT_3D ( 'NONE', #243, #15, #219 ) ;
#37 = DIRECTION ( 'NONE',  ( 0.000000000000000000, 0.000000000000000000, 1.000000000000000000 ) ) ;
#38 = MANIFOLD_SOLID_BREP ( 'Ðý×', #289 ) ;
#39 = APPROVAL_STATUS ( 'not_yet_approved' ) ;
#40 = CYLINDRICAL_SURFACE ( 'NONE', #312, 10.00000000000000000 ) ;
#41 = DIRECTION ( 'NONE',  ( 0.000000000000000000, 0.000000000000000000, 1.000000000000000000 ) ) ;
#42 = EDGE_CURVE ( 'NONE', #97, #183, #294, .T. ) ;
#43 = CARTESIAN_POINT ( 'NONE',  ( 3.000000000000000000, 0.000000000000000000, 12.69999999999999929 ) ) ;
#44 = PLANE ( 'NONE',  #3 ) ;
#45 = DIRECTION ( 'NONE',  ( 1.000000000000000000, 0.000000000000000000, 0.000000000000000000 ) ) ;
#46 = CARTESIAN_POINT ( 'NONE',  ( -3.000000000000000000, 0.000000000000000000, 0.000000000000000000 ) ) ;
#47 = VECTOR ( 'NONE', #221, 1000.000000000000000 ) ;
#48 = DIRECTION ( 'NONE',  ( 0.000000000000000000, 0.000000000000000000, 1.000000000000000000 ) ) ;
#49 = COORDINATED_UNIVERSAL_TIME_OFFSET ( 8, 0, .AHEAD. ) ;
#50 = ORIENTED_EDGE ( 'NONE', *, *, #181, .F. ) ;
#51 = ORIENTED_EDGE ( 'NONE', *, *, #282, .T. ) ;
#52 = EDGE_CURVE ( 'NONE', #313, #183, #82, .T. ) ;
#53 = ORIENTED_EDGE ( 'NONE', *, *, #251, .F. ) ;
#54 = PERSON_AND_ORGANIZATION ( #14, #260 ) ;
#55 = ORIENTED_EDGE ( 'NONE', *, *, #154, .F. ) ;
#56 = EDGE_CURVE ( 'NONE', #97, #280, #128, .T. ) ;
#57 = PERSON_AND_ORGANIZATION ( #14, #260 ) ;
#58 = EDGE_CURVE ( 'NONE', #27, #29, #145, .T. ) ;
#59 = APPLICATION_CONTEXT ( 'configuration controlled 3d designs of mechanical parts and assemblies' ) ;
#60 = EDGE_CURVE ( 'NONE', #250, #124, #175, .T. ) ;
#61 = CARTESIAN_POINT ( 'NONE',  ( -1.614212418857619014, 0.000000000000000000, 0.000000000000000000 ) ) ;
#62 = ADVANCED_FACE ( 'NONE', ( #18, #197 ), #44, .F. ) ;
#63 = DIRECTION ( 'NONE',  ( -1.000000000000000000, -0.000000000000000000, -0.000000000000000000 ) ) ;
#64 = CARTESIAN_POINT ( 'NONE',  ( 2.500000000000000888, 1.224646799147353256E-15, -10.00000000000000000 ) ) ;
#65 = DIRECTION ( 'NONE',  ( -1.000000000000000000, -0.000000000000000000, -0.000000000000000000 ) ) ;
#66 = DIRECTION ( 'NONE',  ( 0.000000000000000000, 0.000000000000000000, 1.000000000000000000 ) ) ;
#67 = AXIS2_PLACEMENT_3D ( 'NONE', #133, #45, #16 ) ;
#68 = MECHANICAL_CONTEXT ( 'NONE', #59, 'mechanical' ) ;
#69 = DIRECTION ( 'NONE',  ( -1.000000000000000000, -0.000000000000000000, -0.000000000000000000 ) ) ;
#70 = DIRECTION ( 'NONE',  ( -1.000000000000000000, 0.000000000000000000, -0.000000000000000000 ) ) ;
#71 = DATE_AND_TIME ( #20, #105 ) ;
#72 = DIRECTION ( 'NONE',  ( 0.000000000000000000, 0.000000000000000000, 1.000000000000000000 ) ) ;
#73 = CARTESIAN_POINT ( 'NONE',  ( -1.614212418857619014, 0.000000000000000000, 0.000000000000000000 ) ) ;
#74 = EDGE_CURVE ( 'NONE', #250, #256, #276, .T. ) ;
#75 = ORIENTED_EDGE ( 'NONE', *, *, #52, .F. ) ;
#76 = DATE_AND_TIME ( #4, #308 ) ;
#77 = EDGE_LOOP ( 'NONE', ( #102, #51 ) ) ;
#78 = COORDINATED_UNIVERSAL_TIME_OFFSET ( 8, 0, .AHEAD. ) ;
#79 = APPROVAL_PERSON_ORGANIZATION ( #268, #209, #240 ) ;
#80 = ORIENTED_EDGE ( 'NONE', *, *, #74, .F. ) ;
#81 = CALENDAR_DATE ( 2020, 24, 12 ) ;
#82 = CIRCLE ( 'NONE', #104, 10.00000000000000000 ) ;
#83 = CC_DESIGN_DATE_AND_TIME_ASSIGNMENT ( #76, #103, ( #254 ) ) ;
#84 = DIRECTION ( 'NONE',  ( -1.000000000000000000, -0.000000000000000000, -0.000000000000000000 ) ) ;
#85 = ORIENTED_EDGE ( 'NONE', *, *, #318, .T. ) ;
#86 = DIRECTION ( 'NONE',  ( -1.000000000000000000, -0.000000000000000000, -0.000000000000000000 ) ) ;
#87 = FACE_OUTER_BOUND ( 'NONE', #335, .T. ) ;
#88 = APPROVAL_ROLE ( '' ) ;
#89 = CARTESIAN_POINT ( 'NONE',  ( 2.999999999999999112, 12.69999999999999929, 0.000000000000000000 ) ) ;
#90 = APPROVAL_STATUS ( 'not_yet_approved' ) ;
#91 = CARTESIAN_POINT ( 'NONE',  ( -3.000000000000000444, 0.000000000000000000, 10.00000000000000000 ) ) ;
#92 = CC_DESIGN_PERSON_AND_ORGANIZATION_ASSIGNMENT ( #208, #127, ( #254 ) ) ;
#93 = PLANE ( 'NONE',  #36 ) ;
#94 = APPLICATION_PROTOCOL_DEFINITION ( 'international standard', 'config_control_design', 1994, #59 ) ;
#95 = EDGE_LOOP ( 'NONE', ( #53, #309, #188, #150 ) ) ;
#96 = CARTESIAN_POINT ( 'NONE',  ( -3.000000000000000444, 1.224646799147353256E-15, -10.00000000000000000 ) ) ;
#97 = VERTEX_POINT ( 'NONE', #329 ) ;
#98 = AXIS2_PLACEMENT_3D ( 'NONE', #269, #86, #35 ) ;
#99 = CIRCLE ( 'NONE', #190, 10.00000000000000000 ) ;
#100 = ORIENTED_EDGE ( 'NONE', *, *, #212, .F. ) ;
#101 = EDGE_LOOP ( 'NONE', ( #203, #55 ) ) ;
#102 = ORIENTED_EDGE ( 'NONE', *, *, #56, .T. ) ;
#103 = DATE_TIME_ROLE ( 'classification_date' ) ;
#104 = AXIS2_PLACEMENT_3D ( 'NONE', #270, #239, #41 ) ;
#105 = LOCAL_TIME ( 9, 36, 0.000000000000000000, #198 ) ;
#106 = APPROVAL_ROLE ( '' ) ;
#107 = APPROVAL_STATUS ( 'not_yet_approved' ) ;
#108 = CC_DESIGN_DATE_AND_TIME_ASSIGNMENT ( #295, #163, ( #156 ) ) ;
#109 = EDGE_LOOP ( 'NONE', ( #100, #1, #151, #149 ) ) ;
#110 = ADVANCED_FACE ( 'NONE', ( #170 ), #93, .F. ) ;
#111 = CC_DESIGN_APPROVAL ( #26, ( #156 ) ) ;
#112 = FACE_OUTER_BOUND ( 'NONE', #180, .T. ) ;
#113 = CARTESIAN_POINT ( 'NONE',  ( -1.614212418857619014, 0.000000000000000000, 10.00000000000000000 ) ) ;
#114 = CARTESIAN_POINT ( 'NONE',  ( -1.614212418857619014, 0.000000000000000000, 12.69999999999999929 ) ) ;
#115 = PLANE ( 'NONE',  #277 ) ;
#116 = DIRECTION ( 'NONE',  ( -1.000000000000000000, -0.000000000000000000, -0.000000000000000000 ) ) ;
#117 = DIRECTION ( 'NONE',  ( -1.000000000000000000, -0.000000000000000000, -0.000000000000000000 ) ) ;
#118 = DIRECTION ( 'NONE',  ( -0.000000000000000000, 0.000000000000000000, 1.000000000000000000 ) ) ;
#119 = CARTESIAN_POINT ( 'NONE',  ( 2.999999999999999112, 1.224646799147353256E-15, -10.00000000000000000 ) ) ;
#120 = ORIENTED_EDGE ( 'NONE', *, *, #52, .T. ) ;
#121 = EDGE_LOOP ( 'NONE', ( #177, #25 ) ) ;
#122 = AXIS2_PLACEMENT_3D ( 'NONE', #296, #84, #265 ) ;
#123 = CIRCLE ( 'NONE', #67, 10.00000000000000000 ) ;
#124 = VERTEX_POINT ( 'NONE', #327 ) ;
#125 = CC_DESIGN_PERSON_AND_ORGANIZATION_ASSIGNMENT ( #57, #129, ( #32 ) ) ;
#126 = ORIENTED_EDGE ( 'NONE', *, *, #212, .T. ) ;
#127 = PERSON_AND_ORGANIZATION_ROLE ( 'classification_officer' ) ;
#128 = CIRCLE ( 'NONE', #234, 10.00000000000000000 ) ;
#129 = PERSON_AND_ORGANIZATION_ROLE ( 'design_supplier' ) ;
#130 = ADVANCED_FACE ( 'NONE', ( #300 ), #200, .F. ) ;
#131 = AXIS2_PLACEMENT_3D ( 'NONE', #247, #328, #72 ) ;
#132 = ADVANCED_FACE ( 'NONE', ( #146 ), #238, .F. ) ;
#133 = CARTESIAN_POINT ( 'NONE',  ( -2.500000000000000444, 0.000000000000000000, 0.000000000000000000 ) ) ;
#134 = CIRCLE ( 'NONE', #186, 10.00000000000000000 ) ;
#135 = CARTESIAN_POINT ( 'NONE',  ( 2.500000000000000888, 0.000000000000000000, 10.00000000000000000 ) ) ;
#136 = CARTESIAN_POINT ( 'NONE',  ( -3.000000000000000444, 0.000000000000000000, 0.000000000000000000 ) ) ;
#137 = DIRECTION ( 'NONE',  ( -1.000000000000000000, -0.000000000000000000, -0.000000000000000000 ) ) ;
#138 = CARTESIAN_POINT ( 'NONE',  ( 2.999999999999999112, 0.000000000000000000, 0.000000000000000000 ) ) ;
#139 = CC_DESIGN_PERSON_AND_ORGANIZATION_ASSIGNMENT ( #310, #236, ( #32 ) ) ;
#140 = PERSON_AND_ORGANIZATION ( #14, #260 ) ;
#141 = FACE_OUTER_BOUND ( 'NONE', #95, .T. ) ;
#142 = DIRECTION ( 'NONE',  ( 0.000000000000000000, 0.000000000000000000, 1.000000000000000000 ) ) ;
#143 = CARTESIAN_POINT ( 'NONE',  ( -2.500000000000000444, 10.00000000000000000, 0.000000000000000000 ) ) ;
#144 = LINE ( 'NONE', #275, #257 ) ;
#145 = CIRCLE ( 'NONE', #319, 12.69999999999999929 ) ;
#146 = FACE_OUTER_BOUND ( 'NONE', #109, .T. ) ;
#147 = CALENDAR_DATE ( 2020, 24, 12 ) ;
#148 = ORIENTED_EDGE ( 'NONE', *, *, #74, .T. ) ;
#149 = ORIENTED_EDGE ( 'NONE', *, *, #206, .T. ) ;
#150 = ORIENTED_EDGE ( 'NONE', *, *, #58, .F. ) ;
#151 = ORIENTED_EDGE ( 'NONE', *, *, #42, .T. ) ;
#152 = ADVANCED_FACE ( 'NONE', ( #112 ), #40, .F. ) ;
#153 = ORIENTED_EDGE ( 'NONE', *, *, #58, .T. ) ;
#154 = EDGE_CURVE ( 'NONE', #224, #256, #202, .T. ) ;
#155 = LOCAL_TIME ( 9, 36, 0.000000000000000000, #187 ) ;
#156 = PRODUCT_DEFINITION ( 'UNKNOWN', '', #32, #30 ) ;
#157 = ADVANCED_FACE ( 'NONE', ( #325 ), #194, .F. ) ;
#158 = ORIENTED_EDGE ( 'NONE', *, *, #2, .T. ) ;
#159 = CC_DESIGN_APPROVAL ( #332, ( #254 ) ) ;
#160 = DIRECTION ( 'NONE',  ( 0.000000000000000000, 0.000000000000000000, 1.000000000000000000 ) ) ;
#161 = DIRECTION ( 'NONE',  ( -1.000000000000000000, -0.000000000000000000, -0.000000000000000000 ) ) ;
#162 = DIRECTION ( 'NONE',  ( -1.000000000000000000, -0.000000000000000000, -0.000000000000000000 ) ) ;
#163 = DATE_TIME_ROLE ( 'creation_date' ) ;
#164 = AXIS2_PLACEMENT_3D ( 'NONE', #331, #69, #302 ) ;
#165 = LINE ( 'NONE', #216, #226 ) ;
#166 = LOCAL_TIME ( 9, 36, 0.000000000000000000, #49 ) ;
#167 = CARTESIAN_POINT ( 'NONE',  ( 3.000000000000000000, 0.000000000000000000, 0.000000000000000000 ) ) ;
#168 = DIRECTION ( 'NONE',  ( -1.000000000000000000, -0.000000000000000000, -0.000000000000000000 ) ) ;
#169 = DIRECTION ( 'NONE',  ( 0.000000000000000000, 0.000000000000000000, 1.000000000000000000 ) ) ;
#170 = FACE_OUTER_BOUND ( 'NONE', #311, .T. ) ;
#171 = APPROVAL_DATE_TIME ( #71, #26 ) ;
#172 = DIRECTION ( 'NONE',  ( -1.000000000000000000, -0.000000000000000000, -0.000000000000000000 ) ) ;
#173 = DIRECTION ( 'NONE',  ( -1.000000000000000000, -0.000000000000000000, -0.000000000000000000 ) ) ;
#174 = PERSON_AND_ORGANIZATION_ROLE ( 'design_owner' ) ;
#175 = CIRCLE ( 'NONE', #290, 10.00000000000000000 ) ;
#176 = AXIS2_PLACEMENT_3D ( 'NONE', #223, #201, #299 ) ;
#177 = ORIENTED_EDGE ( 'NONE', *, *, #60, .F. ) ;
#178 = VERTEX_POINT ( 'NONE', #12 ) ;
#179 = DATE_AND_TIME ( #81, #211 ) ;
#180 = EDGE_LOOP ( 'NONE', ( #22, #285, #204, #80 ) ) ;
#181 = EDGE_CURVE ( 'NONE', #232, #29, #191, .T. ) ;
#182 = SECURITY_CLASSIFICATION_LEVEL ( 'unclassified' ) ;
#183 = VERTEX_POINT ( 'NONE', #135 ) ;
#184 = APPROVAL_DATE_TIME ( #185, #332 ) ;
#185 = DATE_AND_TIME ( #258, #155 ) ;
#186 = AXIS2_PLACEMENT_3D ( 'NONE', #293, #161, #9 ) ;
#187 = COORDINATED_UNIVERSAL_TIME_OFFSET ( 8, 0, .AHEAD. ) ;
#188 = ORIENTED_EDGE ( 'NONE', *, *, #181, .T. ) ;
#189 = CIRCLE ( 'NONE', #233, 12.69999999999999929 ) ;
#190 = AXIS2_PLACEMENT_3D ( 'NONE', #136, #297, #66 ) ;
#191 = LINE ( 'NONE', #114, #283 ) ;
#192 = DIRECTION ( 'NONE',  ( 1.000000000000000000, 0.000000000000000000, 0.000000000000000000 ) ) ;
#193 = APPLICATION_PROTOCOL_DEFINITION ( 'international standard', 'config_control_design', 1994, #262 ) ;
#194 = CYLINDRICAL_SURFACE ( 'NONE', #122, 10.00000000000000000 ) ;
#195 = DIRECTION ( 'NONE',  ( 0.000000000000000000, 0.000000000000000000, -1.000000000000000000 ) ) ;
#196 = DIRECTION ( 'NONE',  ( 0.000000000000000000, 0.000000000000000000, -1.000000000000000000 ) ) ;
#197 = FACE_BOUND ( 'NONE', #77, .T. ) ;
#198 = COORDINATED_UNIVERSAL_TIME_OFFSET ( 8, 0, .AHEAD. ) ;
#199 = CARTESIAN_POINT ( 'NONE',  ( 2.999999999999999112, 0.000000000000000000, 0.000000000000000000 ) ) ;
#200 = CYLINDRICAL_SURFACE ( 'NONE', #5, 10.00000000000000000 ) ;
#201 = DIRECTION ( 'NONE',  ( -1.000000000000000000, -0.000000000000000000, -0.000000000000000000 ) ) ;
#202 = CIRCLE ( 'NONE', #98, 10.00000000000000000 ) ;
#203 = ORIENTED_EDGE ( 'NONE', *, *, #33, .F. ) ;
#204 = ORIENTED_EDGE ( 'NONE', *, *, #154, .T. ) ;
#205 = EDGE_LOOP ( 'NONE', ( #214, #85, #148, #333 ) ) ;
#206 = EDGE_CURVE ( 'NONE', #183, #313, #134, .T. ) ;
#207 = ORIENTED_EDGE ( 'NONE', *, *, #225, .T. ) ;
#208 = PERSON_AND_ORGANIZATION ( #14, #260 ) ;
#209 = APPROVAL ( #39, 'UNSPECIFIED' ) ;
#210 = AXIS2_PLACEMENT_3D ( 'NONE', #241, #213, #323 ) ;
#211 = LOCAL_TIME ( 9, 36, 0.000000000000000000, #78 ) ;
#212 = EDGE_CURVE ( 'NONE', #280, #313, #165, .T. ) ;
#213 = DIRECTION ( 'NONE',  ( -1.000000000000000000, -0.000000000000000000, -0.000000000000000000 ) ) ;
#214 = ORIENTED_EDGE ( 'NONE', *, *, #305, .F. ) ;
#215 =( NAMED_UNIT ( * ) SI_UNIT ( $, .STERADIAN. ) SOLID_ANGLE_UNIT ( ) );
#216 = CARTESIAN_POINT ( 'NONE',  ( -1.614212418857619014, 1.224646799147353256E-15, -10.00000000000000000 ) ) ;
#217 = ADVANCED_FACE ( 'NONE', ( #141 ), #244, .T. ) ;
#218 = DIRECTION ( 'NONE',  ( 0.000000000000000000, 0.000000000000000000, 1.000000000000000000 ) ) ;
#219 = DIRECTION ( 'NONE',  ( -0.000000000000000000, 0.000000000000000000, 1.000000000000000000 ) ) ;
#220 = FACE_OUTER_BOUND ( 'NONE', #253, .T. ) ;
#221 = DIRECTION ( 'NONE',  ( -1.000000000000000000, -0.000000000000000000, -0.000000000000000000 ) ) ;
#222 = CARTESIAN_POINT ( 'NONE',  ( -1.614212418857619014, 1.224646799147353256E-15, -10.00000000000000000 ) ) ;
#223 = CARTESIAN_POINT ( 'NONE',  ( 3.000000000000000000, 0.000000000000000000, 0.000000000000000000 ) ) ;
#224 = VERTEX_POINT ( 'NONE', #96 ) ;
#225 = EDGE_CURVE ( 'NONE', #29, #27, #316, .T. ) ;
#226 = VECTOR ( 'NONE', #306, 1000.000000000000000 ) ;
#227 = ORIENTED_EDGE ( 'NONE', *, *, #251, .T. ) ;
#228 = VECTOR ( 'NONE', #168, 1000.000000000000000 ) ;
#229 = CIRCLE ( 'NONE', #176, 12.69999999999999929 ) ;
#230 = ORIENTED_EDGE ( 'NONE', *, *, #206, .F. ) ;
#231 = UNCERTAINTY_MEASURE_WITH_UNIT (LENGTH_MEASURE( 1.000000000000000082E-05 ), #8, 'distance_accuracy_value', 'NONE');
#232 = VERTEX_POINT ( 'NONE', #43 ) ;
#233 = AXIS2_PLACEMENT_3D ( 'NONE', #167, #326, #37 ) ;
#234 = AXIS2_PLACEMENT_3D ( 'NONE', #138, #162, #218 ) ;
#235 = EDGE_CURVE ( 'NONE', #178, #232, #229, .T. ) ;
#236 = PERSON_AND_ORGANIZATION_ROLE ( 'creator' ) ;
#237 = ADVANCED_BREP_SHAPE_REPRESENTATION ( 'QB-CTZHWP-20-795-M', ( #38, #19 ), #317 ) ;
#238 = CYLINDRICAL_SURFACE ( 'NONE', #210, 10.00000000000000000 ) ;
#239 = DIRECTION ( 'NONE',  ( -1.000000000000000000, -0.000000000000000000, -0.000000000000000000 ) ) ;
#240 = APPROVAL_ROLE ( '' ) ;
#241 = CARTESIAN_POINT ( 'NONE',  ( -1.614212418857619014, 0.000000000000000000, 0.000000000000000000 ) ) ;
#242 = CARTESIAN_POINT ( 'NONE',  ( -3.000000000000000000, 0.000000000000000000, 12.69999999999999929 ) ) ;
#243 = CARTESIAN_POINT ( 'NONE',  ( 2.500000000000000444, 10.00000000000000000, 0.000000000000000000 ) ) ;
#244 = CYLINDRICAL_SURFACE ( 'NONE', #164, 12.69999999999999929 ) ;
#245 = DIRECTION ( 'NONE',  ( 1.000000000000000000, 0.000000000000000000, 0.000000000000000000 ) ) ;
#246 = CARTESIAN_POINT ( 'NONE',  ( 0.000000000000000000, 0.000000000000000000, 0.000000000000000000 ) ) ;
#247 = CARTESIAN_POINT ( 'NONE',  ( -1.614212418857619014, 0.000000000000000000, 0.000000000000000000 ) ) ;
#248 = APPROVAL_PERSON_ORGANIZATION ( #140, #26, #88 ) ;
#249 = CARTESIAN_POINT ( 'NONE',  ( -1.614212418857619014, 0.000000000000000000, 10.00000000000000000 ) ) ;
#250 = VERTEX_POINT ( 'NONE', #272 ) ;
#251 = EDGE_CURVE ( 'NONE', #178, #27, #144, .T. ) ;
#252 = ORIENTED_EDGE ( 'NONE', *, *, #282, .F. ) ;
#253 = EDGE_LOOP ( 'NONE', ( #158, #227, #281, #50 ) ) ;
#254 = SECURITY_CLASSIFICATION ( '', '', #182 ) ;
#255 = ADVANCED_FACE ( 'NONE', ( #220 ), #21, .T. ) ;
#256 = VERTEX_POINT ( 'NONE', #91 ) ;
#257 = VECTOR ( 'NONE', #117, 1000.000000000000000 ) ;
#258 = CALENDAR_DATE ( 2020, 24, 12 ) ;
#259 = CC_DESIGN_PERSON_AND_ORGANIZATION_ASSIGNMENT ( #274, #278, ( #156 ) ) ;
#260 = ORGANIZATION ( 'UNSPECIFIED', 'UNSPECIFIED', '' ) ;
#261 = EDGE_LOOP ( 'NONE', ( #334, #10 ) ) ;
#262 = APPLICATION_CONTEXT ( 'configuration controlled 3d designs of mechanical parts and assemblies' ) ;
#263 = PRODUCT_RELATED_PRODUCT_CATEGORY ( 'detail', '', ( #292 ) ) ;
#264 = DIRECTION ( 'NONE',  ( 1.000000000000000000, 0.000000000000000000, 0.000000000000000000 ) ) ;
#265 = DIRECTION ( 'NONE',  ( 0.000000000000000000, 0.000000000000000000, 1.000000000000000000 ) ) ;
#266 = CARTESIAN_POINT ( 'NONE',  ( -3.000000000000000000, 0.000000000000000000, 0.000000000000000000 ) ) ;
#267 = AXIS2_PLACEMENT_3D ( 'NONE', #143, #264, #196 ) ;
#268 = PERSON_AND_ORGANIZATION ( #14, #260 ) ;
#269 = CARTESIAN_POINT ( 'NONE',  ( -3.000000000000000444, 0.000000000000000000, 0.000000000000000000 ) ) ;
#270 = CARTESIAN_POINT ( 'NONE',  ( 2.500000000000000888, 0.000000000000000000, 0.000000000000000000 ) ) ;
#271 = FACE_OUTER_BOUND ( 'NONE', #121, .T. ) ;
#272 = CARTESIAN_POINT ( 'NONE',  ( -2.500000000000000444, 0.000000000000000000, 10.00000000000000000 ) ) ;
#273 = DIRECTION ( 'NONE',  ( 0.000000000000000000, 0.000000000000000000, -1.000000000000000000 ) ) ;
#274 = PERSON_AND_ORGANIZATION ( #14, #260 ) ;
#275 = CARTESIAN_POINT ( 'NONE',  ( -1.614212418857619014, 1.555301434917138433E-15, -12.69999999999999929 ) ) ;
#276 = LINE ( 'NONE', #249, #47 ) ;
#277 = AXIS2_PLACEMENT_3D ( 'NONE', #13, #192, #195 ) ;
#278 = PERSON_AND_ORGANIZATION_ROLE ( 'creator' ) ;
#279 = VECTOR ( 'NONE', #63, 1000.000000000000000 ) ;
#280 = VERTEX_POINT ( 'NONE', #119 ) ;
#281 = ORIENTED_EDGE ( 'NONE', *, *, #225, .F. ) ;
#282 = EDGE_CURVE ( 'NONE', #280, #97, #291, .T. ) ;
#283 = VECTOR ( 'NONE', #65, 1000.000000000000000 ) ;
#284 = EDGE_LOOP ( 'NONE', ( #252, #126, #120, #23 ) ) ;
#285 = ORIENTED_EDGE ( 'NONE', *, *, #305, .T. ) ;
#286 = SHAPE_DEFINITION_REPRESENTATION ( #11, #237 ) ;
#287 = ADVANCED_FACE ( 'NONE', ( #271 ), #330, .F. ) ;
#288 = AXIS2_PLACEMENT_3D ( 'NONE', #199, #172, #160 ) ;
#289 = CLOSED_SHELL ( 'NONE', ( #255, #152, #157, #110, #132, #130, #31, #217, #62, #287 ) ) ;
#290 = AXIS2_PLACEMENT_3D ( 'NONE', #303, #245, #273 ) ;
#291 = CIRCLE ( 'NONE', #288, 10.00000000000000000 ) ;
#292 = PRODUCT ( 'QB-CTZHWP-20-795-M', 'QB-CTZHWP-20-795-M', '', ( #68 ) ) ;
#293 = CARTESIAN_POINT ( 'NONE',  ( 2.500000000000000888, 0.000000000000000000, 0.000000000000000000 ) ) ;
#294 = LINE ( 'NONE', #113, #279 ) ;
#295 = DATE_AND_TIME ( #147, #166 ) ;
#296 = CARTESIAN_POINT ( 'NONE',  ( -1.614212418857619014, 0.000000000000000000, 0.000000000000000000 ) ) ;
#297 = DIRECTION ( 'NONE',  ( -1.000000000000000000, -0.000000000000000000, -0.000000000000000000 ) ) ;
#298 = DIRECTION ( 'NONE',  ( 0.000000000000000000, 0.000000000000000000, 1.000000000000000000 ) ) ;
#299 = DIRECTION ( 'NONE',  ( 0.000000000000000000, 0.000000000000000000, 1.000000000000000000 ) ) ;
#300 = FACE_OUTER_BOUND ( 'NONE', #205, .T. ) ;
#301 =( NAMED_UNIT ( * ) PLANE_ANGLE_UNIT ( ) SI_UNIT ( $, .RADIAN. ) );
#302 = DIRECTION ( 'NONE',  ( 0.000000000000000000, 0.000000000000000000, 1.000000000000000000 ) ) ;
#303 = CARTESIAN_POINT ( 'NONE',  ( -2.500000000000000444, 0.000000000000000000, 0.000000000000000000 ) ) ;
#304 = DIRECTION ( 'NONE',  ( 1.000000000000000000, 0.000000000000000000, 0.000000000000000000 ) ) ;
#305 = EDGE_CURVE ( 'NONE', #124, #224, #34, .T. ) ;
#306 = DIRECTION ( 'NONE',  ( -1.000000000000000000, -0.000000000000000000, -0.000000000000000000 ) ) ;
#307 = CC_DESIGN_PERSON_AND_ORGANIZATION_ASSIGNMENT ( #322, #174, ( #292 ) ) ;
#308 = LOCAL_TIME ( 9, 36, 0.000000000000000000, #28 ) ;
#309 = ORIENTED_EDGE ( 'NONE', *, *, #235, .T. ) ;
#310 = PERSON_AND_ORGANIZATION ( #14, #260 ) ;
#311 = EDGE_LOOP ( 'NONE', ( #230, #75 ) ) ;
#312 = AXIS2_PLACEMENT_3D ( 'NONE', #61, #137, #320 ) ;
#313 = VERTEX_POINT ( 'NONE', #64 ) ;
#314 = CC_DESIGN_APPROVAL ( #209, ( #32 ) ) ;
#315 = APPROVAL_DATE_TIME ( #179, #209 ) ;
#316 = CIRCLE ( 'NONE', #6, 12.69999999999999929 ) ;
#317 =( GEOMETRIC_REPRESENTATION_CONTEXT ( 3 ) GLOBAL_UNCERTAINTY_ASSIGNED_CONTEXT ( ( #231 ) ) GLOBAL_UNIT_ASSIGNED_CONTEXT ( ( #8, #301, #215 ) ) REPRESENTATION_CONTEXT ( 'NONE', 'WORKASPACE' ) );
#318 = EDGE_CURVE ( 'NONE', #124, #250, #123, .T. ) ;
#319 = AXIS2_PLACEMENT_3D ( 'NONE', #266, #116, #142 ) ;
#320 = DIRECTION ( 'NONE',  ( 0.000000000000000000, 0.000000000000000000, 1.000000000000000000 ) ) ;
#321 = FACE_BOUND ( 'NONE', #101, .T. ) ;
#322 = PERSON_AND_ORGANIZATION ( #14, #260 ) ;
#323 = DIRECTION ( 'NONE',  ( 0.000000000000000000, 0.000000000000000000, 1.000000000000000000 ) ) ;
#324 = CARTESIAN_POINT ( 'NONE',  ( -3.000000000000000000, 1.555301434917138433E-15, -12.69999999999999929 ) ) ;
#325 = FACE_OUTER_BOUND ( 'NONE', #284, .T. ) ;
#326 = DIRECTION ( 'NONE',  ( -1.000000000000000000, -0.000000000000000000, -0.000000000000000000 ) ) ;
#327 = CARTESIAN_POINT ( 'NONE',  ( -2.500000000000000444, 1.224646799147353256E-15, -10.00000000000000000 ) ) ;
#328 = DIRECTION ( 'NONE',  ( -1.000000000000000000, -0.000000000000000000, -0.000000000000000000 ) ) ;
#329 = CARTESIAN_POINT ( 'NONE',  ( 2.999999999999999112, 0.000000000000000000, 10.00000000000000000 ) ) ;
#330 = PLANE ( 'NONE',  #267 ) ;
#331 = CARTESIAN_POINT ( 'NONE',  ( -1.614212418857619014, 0.000000000000000000, 0.000000000000000000 ) ) ;
#332 = APPROVAL ( #107, 'UNSPECIFIED' ) ;
#333 = ORIENTED_EDGE ( 'NONE', *, *, #33, .T. ) ;
#334 = ORIENTED_EDGE ( 'NONE', *, *, #2, .F. ) ;
#335 = EDGE_LOOP ( 'NONE', ( #207, #153 ) ) ;
ENDSEC;
END-ISO-10303-21;
